  0
SECTION
  2
HEADER
  9
$ACADVER
  1
AC1015
  9
$ACADMAINTVER
 70
     6
  9
$DWGCODEPAGE
  3
ANSI_1254
  9
$INSBASE
 10
0.0
 20
0.0
 30
0.0
  9
$EXTMIN
 10
0.0
 20
0.0
 30
0.0
  9
$EXTMAX
 10
279.4
 20
215.9
 30
0.0
  9
$LIMMIN
 10
0.0
 20
0.0
  9
$LIMMAX
 10
279.4
 20
215.9
  9
$ORTHOMODE
 70
     0
  9
$REGENMODE
 70
     1
  9
$FILLMODE
 70
     1
  9
$QTEXTMODE
 70
     0
  9
$MIRRTEXT
 70
     1
  9
$LTSCALE
 40
1.0
  9
$ATTMODE
 70
     1
  9
$TEXTSIZE
 40
3.5
  9
$TRACEWID
 40
1.0
  9
$TEXTSTYLE
  7
Standard
  9
$CLAYER
  8
0
  9
$CELTYPE
  6
ByLayer
  9
$CECOLOR
 62
   256
  9
$CELTSCALE
 40
1.0
  9
$DISPSILH
 70
     0
  9
$DIMSCALE
 40
1.0
  9
$DIMASZ
 40
3.5
  9
$DIMEXO
 40
1.0
  9
$DIMDLI
 40
3.75
  9
$DIMRND
 40
0.0
  9
$DIMDLE
 40
0.0
  9
$DIMEXE
 40
1.0
  9
$DIMTP
 40
0.0
  9
$DIMTM
 40
0.0
  9
$DIMTXT
 40
3.5
  9
$DIMCEN
 40
2.5
  9
$DIMTSZ
 40
0.0
  9
$DIMTOL
 70
     0
  9
$DIMLIM
 70
     0
  9
$DIMTIH
 70
     1
  9
$DIMTOH
 70
     1
  9
$DIMSE1
 70
     0
  9
$DIMSE2
 70
     0
  9
$DIMTAD
 70
     1
  9
$DIMZIN
 70
     0
  9
$DIMBLK
  1

  9
$DIMASO
 70
     1
  9
$DIMSHO
 70
     1
  9
$DIMPOST
  1

  9
$DIMAPOST
  1

  9
$DIMALT
 70
     0
  9
$DIMALTD
 70
     3
  9
$DIMALTF
 40
0.0393700787
  9
$DIMLFAC
 40
1.0
  9
$DIMTOFL
 70
     1
  9
$DIMTVP
 40
0.0
  9
$DIMTIX
 70
     0
  9
$DIMSOXD
 70
     0
  9
$DIMSAH
 70
     0
  9
$DIMBLK1
  1

  9
$DIMBLK2
  1

  9
$DIMSTYLE
  2
ISO-25
  9
$DIMCLRD
 70
     0
  9
$DIMCLRE
 70
     0
  9
$DIMCLRT
 70
     0
  9
$DIMTFAC
 40
1.0
  9
$DIMGAP
 40
1.524
  9
$DIMJUST
 70
     0
  9
$DIMSD1
 70
     0
  9
$DIMSD2
 70
     0
  9
$DIMTOLJ
 70
     0
  9
$DIMTZIN
 70
     0
  9
$DIMALTZ
 70
     0
  9
$DIMALTTZ
 70
     0
  9
$DIMUPT
 70
     0
  9
$DIMDEC
 70
     2
  9
$DIMTDEC
 70
     2
  9
$DIMALTU
 70
     2
  9
$DIMALTTD
 70
     3
  9
$DIMTXSTY
  7
Standard
  9
$DIMAUNIT
 70
     0
  9
$DIMADEC
 70
     2
  9
$DIMALTRND
 40
0.0
  9
$DIMAZIN
 70
     0
  9
$DIMDSEP
 70
    44
  9
$DIMATFIT
 70
     3
  9
$DIMFRAC
 70
     0
  9
$DIMLDRBLK
  1

  9
$DIMLUNIT
 70
     2
  9
$DIMLWD
 70
    -2
  9
$DIMLWE
 70
    -2
  9
$DIMTMOVE
 70
     0
  9
$LUNITS
 70
     2
  9
$LUPREC
 70
     2
  9
$SKETCHINC
 40
1.0
  9
$FILLETRAD
 40
10.0
  9
$AUNITS
 70
     0
  9
$AUPREC
 70
     2
  9
$MENU
  1
.
  9
$ELEVATION
 40
0.0
  9
$PELEVATION
 40
0.0
  9
$THICKNESS
 40
0.0
  9
$LIMCHECK
 70
     0
  9
$CHAMFERA
 40
0.0
  9
$CHAMFERB
 40
0.0
  9
$CHAMFERC
 40
0.0
  9
$CHAMFERD
 40
0.0
  9
$SKPOLY
 70
     0
  9
$TDCREATE
 40
2459935.709329803
  9
$TDUCREATE
 40
2459935.584329803
  9
$TDUPDATE
 40
2459935.709329988
  9
$TDUUPDATE
 40
2459935.584329988
  9
$TDINDWG
 40
0.0000000116
  9
$TDUSRTIMER
 40
0.0000000116
  9
$USRTIMER
 70
     1
  9
$ANGBASE
 50
0.0
  9
$ANGDIR
 70
     0
  9
$PDMODE
 70
     0
  9
$PDSIZE
 40
-1.0
  9
$PLINEWID
 40
0.0
  9
$SPLFRAME
 70
     0
  9
$SPLINETYPE
 70
     6
  9
$SPLINESEGS
 70
     8
  9
$HANDSEED
  5
128
  9
$SURFTAB1
 70
     6
  9
$SURFTAB2
 70
     6
  9
$SURFTYPE
 70
     6
  9
$SURFU
 70
     6
  9
$SURFV
 70
     6
  9
$UCSBASE
  2

  9
$UCSNAME
  2

  9
$UCSORG
 10
0.0
 20
0.0
 30
0.0
  9
$UCSXDIR
 10
1.0
 20
0.0
 30
0.0
  9
$UCSYDIR
 10
0.0
 20
1.0
 30
0.0
  9
$UCSORTHOREF
  2

  9
$UCSORTHOVIEW
 70
     0
  9
$UCSORGTOP
 10
0.0
 20
0.0
 30
0.0
  9
$UCSORGBOTTOM
 10
0.0
 20
0.0
 30
0.0
  9
$UCSORGLEFT
 10
0.0
 20
0.0
 30
0.0
  9
$UCSORGRIGHT
 10
0.0
 20
0.0
 30
0.0
  9
$UCSORGFRONT
 10
0.0
 20
0.0
 30
0.0
  9
$UCSORGBACK
 10
0.0
 20
0.0
 30
0.0
  9
$PUCSBASE
  2

  9
$PUCSNAME
  2

  9
$PUCSORG
 10
0.0
 20
0.0
 30
0.0
  9
$PUCSXDIR
 10
1.0
 20
0.0
 30
0.0
  9
$PUCSYDIR
 10
0.0
 20
1.0
 30
0.0
  9
$PUCSORTHOREF
  2

  9
$PUCSORTHOVIEW
 70
     0
  9
$PUCSORGTOP
 10
0.0
 20
0.0
 30
0.0
  9
$PUCSORGBOTTOM
 10
0.0
 20
0.0
 30
0.0
  9
$PUCSORGLEFT
 10
0.0
 20
0.0
 30
0.0
  9
$PUCSORGRIGHT
 10
0.0
 20
0.0
 30
0.0
  9
$PUCSORGFRONT
 10
0.0
 20
0.0
 30
0.0
  9
$PUCSORGBACK
 10
0.0
 20
0.0
 30
0.0
  9
$USERI1
 70
     0
  9
$USERI2
 70
     0
  9
$USERI3
 70
     0
  9
$USERI4
 70
     0
  9
$USERI5
 70
     0
  9
$USERR1
 40
0.0
  9
$USERR2
 40
0.0
  9
$USERR3
 40
0.0
  9
$USERR4
 40
0.0
  9
$USERR5
 40
0.0
  9
$WORLDVIEW
 70
     1
  9
$SHADEDGE
 70
     3
  9
$SHADEDIF
 70
    70
  9
$TILEMODE
 70
     1
  9
$MAXACTVP
 70
    64
  9
$PINSBASE
 10
0.0
 20
0.0
 30
0.0
  9
$PLIMCHECK
 70
     0
  9
$PEXTMIN
 10
1.0000000000E+20
 20
1.0000000000E+20
 30
1.0000000000E+20
  9
$PEXTMAX
 10
-1.0000000000E+20
 20
-1.0000000000E+20
 30
-1.0000000000E+20
  9
$PLIMMIN
 10
0.0
 20
0.0
  9
$PLIMMAX
 10
420.0
 20
297.0
  9
$UNITMODE
 70
     0
  9
$VISRETAIN
 70
     1
  9
$PLINEGEN
 70
     0
  9
$PSLTSCALE
 70
     1
  9
$TREEDEPTH
 70
  3020
  9
$CMLSTYLE
  2
Standard
  9
$CMLJUST
 70
     0
  9
$CMLSCALE
 40
20.0
  9
$PROXYGRAPHICS
 70
     1
  9
$MEASUREMENT
 70
     1
  9
$CELWEIGHT
370
    -1
  9
$ENDCAPS
280
     0
  9
$JOINSTYLE
280
     0
  9
$LWDISPLAY
290
     1
  9
$INSUNITS
 70
     4
  9
$HYPERLINKBASE
  1

  9
$STYLESHEET
  1

  9
$XEDIT
290
     1
  9
$CEPSNTYPE
380
     0
  9
$PSTYLEMODE
290
     1
  9
$FINGERPRINTGUID
  2
{03b95bed-8540-4671-b719-baa030ed8f9f}
  9
$VERSIONGUID
  2
{FAEB1C32-E019-11D5-929B-00C0DF256EC4}
  9
$EXTNAMES
290
     1
  9
$PSVPSCALE
 40
0.0
  9
$OLESTARTUP
290
     0
  0
ENDSEC
  0
SECTION
  2
CLASSES
  0
CLASS
  1
ACDBDICTIONARYWDFLT
  2
AcDbDictionaryWithDefault
  3
ObjectDBX Classes
 90
        0
280
     0
281
     0
  0
CLASS
  1
VISUALSTYLE
  2
AcDbVisualStyle
  3
ObjectDBX Classes
 90
     4095
280
     0
281
     0
  0
CLASS
  1
MATERIAL
  2
AcDbMaterial
  3
ObjectDBX Classes
 90
     1153
280
     0
281
     0
  0
CLASS
  1
SCALE
  2
AcDbScale
  3
ObjectDBX Classes
 90
     1153
280
     0
281
     0
  0
CLASS
  1
TABLESTYLE
  2
AcDbTableStyle
  3
ObjectDBX Classes
 90
     4095
280
     0
281
     0
  0
CLASS
  1
MLEADERSTYLE
  2
AcDbMLeaderStyle
  3
ACDB_MLEADERSTYLE_CLASS
 90
     4095
280
     0
281
     0
  0
CLASS
  1
SUN
  2
AcDbSun
  3
SCENEOE
 90
     1153
280
     0
281
     0
  0
CLASS
  1
ACDBPLACEHOLDER
  2
AcDbPlaceHolder
  3
ObjectDBX Classes
 90
        0
280
     0
281
     0
  0
CLASS
  1
LAYOUT
  2
AcDbLayout
  3
ObjectDBX Classes
 90
        0
280
     0
281
     0
  0
ENDSEC
  0
SECTION
  2
TABLES
  0
TABLE
  2
VPORT
  5
8
330
0
100
AcDbSymbolTable
 70
     1
  0
VPORT
  5
29
330
8
100
AcDbSymbolTableRecord
100
AcDbViewportTableRecord
  2
*Active
 70
     0
 10
0.0
 20
0.0
 11
1.0
 21
1.0
 12
139.7
 22
107.95
 13
0.0
 23
0.0
 14
10.0
 24
10.0
 15
10.0
 25
10.0
 16
0.0
 26
0.0
 36
1.0
 17
0.0
 27
0.0
 37
0.0
 40
215.9
 41
1.2941176471
 42
50.0
 43
0.0
 44
0.0
 50
0.0
 51
0.0
 71
     0
 72
  2000
 73
     1
 74
     3
 75
     0
 76
     0
 77
     0
 78
     0
281
     0
 65
     1
110
0.0
120
0.0
130
0.0
111
1.0
121
0.0
131
0.0
112
0.0
122
1.0
132
0.0
 79
     0
146
0.0
  0
ENDTAB
  0
TABLE
  2
LTYPE
  5
5
330
0
100
AcDbSymbolTable
 70
     6
  0
LTYPE
  5
14
330
5
100
AcDbSymbolTableRecord
100
AcDbLinetypeTableRecord
  2
ByBlock
 70
     0
  3

 72
    65
 73
     0
 40
0.0
  0
LTYPE
  5
15
330
5
100
AcDbSymbolTableRecord
100
AcDbLinetypeTableRecord
  2
ByLayer
 70
     0
  3

 72
    65
 73
     0
 40
0.0
  0
LTYPE
  5
16
330
5
100
AcDbSymbolTableRecord
100
AcDbLinetypeTableRecord
  2
Continuous
 70
     0
  3
Solid line
 72
    65
 73
     0
 40
0.0
  0
LTYPE
  5
6E
330
5
100
AcDbSymbolTableRecord
100
AcDbLinetypeTableRecord
  2
HIDDEN
 70
     0
  3
Hidden __ __ __ __ __ __ __ __ __ __ __ __ __ __
 72
    65
 73
     2
 40
1.905
 49
1.27
 74
     0
 49
-0.635
 74
     0
  0
LTYPE
  5
6F
330
5
100
AcDbSymbolTableRecord
100
AcDbLinetypeTableRecord
  2
PHANTOM
 70
     0
  3
Phantom ______  __  __  ______  __  __  ______
 72
    65
 73
     6
 40
12.7
 49
6.35
 74
     0
 49
-1.27
 74
     0
 49
1.27
 74
     0
 49
-1.27
 74
     0
 49
1.27
 74
     0
 49
-1.27
 74
     0
  0
LTYPE
  5
70
330
5
100
AcDbSymbolTableRecord
100
AcDbLinetypeTableRecord
  2
CENTER
 70
     0
  3
Center ____ _ ____ _ ____ _ ____ _ ____ _ ____
 72
    65
 73
     4
 40
10.16
 49
6.35
 74
     0
 49
-1.27
 74
     0
 49
1.27
 74
     0
 49
-1.27
 74
     0
  0
LTYPE
  5
71
330
5
100
AcDbSymbolTableRecord
100
AcDbLinetypeTableRecord
  2
CENTERX2
 70
     0
  3
Center (2x) ________  __  ________  __  _____
 72
    65
 73
     4
 40
20.32
 49
12.7
 74
     0
 49
-2.54
 74
     0
 49
2.54
 74
     0
 49
-2.54
 74
     0
  0
LTYPE
  5
72
330
5
100
AcDbSymbolTableRecord
100
AcDbLinetypeTableRecord
  2
DOT2
 70
     0
  3
Dot (.5x) ........................................
 72
    65
 73
     2
 40
0.635
 49
0.0
 74
     0
 49
-0.635
 74
     0
  0
ENDTAB
  0
TABLE
  2
LAYER
  5
2
330
0
100
AcDbSymbolTable
 70
    17
  0
LAYER
  5
10
330
2
100
AcDbSymbolTableRecord
100
AcDbLayerTableRecord
  2
0
 70
     0
 62
     7
  6
Continuous
370
    -3
390
F
  0
LAYER
  5
73
330
2
100
AcDbSymbolTableRecord
100
AcDbLayerTableRecord
  2
FORMAT
 70
     0
 62
     7
  6
Continuous
370
    -3
390
F
  0
LAYER
  5
74
330
2
100
AcDbSymbolTableRecord
100
AcDbLayerTableRecord
  2
YARDIMCI_GEOMETRI
 70
     0
 62
    -6
  6
Continuous
290
     0
370
    -3
390
F
  0
LAYER
  5
75
330
2
100
AcDbSymbolTableRecord
100
AcDbLayerTableRecord
  2
SAYFA_CERCEVESI
 70
     0
 62
     7
  6
Continuous
370
    25
390
F
  0
LAYER
  5
76
330
2
100
AcDbSymbolTableRecord
100
AcDbLayerTableRecord
  2
ANTET
 70
     0
 62
     7
  6
Continuous
370
    -3
390
F
  0
LAYER
  5
77
330
2
100
AcDbSymbolTableRecord
100
AcDbLayerTableRecord
  2
OLCU
 70
     0
 62
   150
  6
Continuous
370
    -3
390
F
  0
LAYER
  5
78
330
2
100
AcDbSymbolTableRecord
100
AcDbLayerTableRecord
  2
METIN
 70
     0
 62
    96
  6
Continuous
370
    -3
390
F
  0
LAYER
  5
79
330
2
100
AcDbSymbolTableRecord
100
AcDbLayerTableRecord
  2
BALON
 70
     0
 62
     5
  6
Continuous
370
    -3
390
F
  0
LAYER
  5
7A
330
2
100
AcDbSymbolTableRecord
100
AcDbLayerTableRecord
  2
VURGU
 70
     0
 62
     7
  6
Continuous
370
    -3
390
F
  0
LAYER
  5
7B
330
2
100
AcDbSymbolTableRecord
100
AcDbLayerTableRecord
  2
SILIK
 70
     0
 62
     7
  6
Continuous
370
    -3
390
F
  0
LAYER
  5
7C
330
2
100
AcDbSymbolTableRecord
100
AcDbLayerTableRecord
  2
MODEL
 70
     0
 62
     7
  6
Continuous
370
    -3
390
F
  0
LAYER
  5
7D
330
2
100
AcDbSymbolTableRecord
100
AcDbLayerTableRecord
  2
DETAYLANDıRMA
 70
     0
 62
   190
  6
Continuous
370
    -3
390
F
  0
LAYER
  5
7E
330
2
100
AcDbSymbolTableRecord
100
AcDbLayerTableRecord
  2
TOLERANS
 70
     0
 62
   230
  6
Continuous
370
    -3
390
F
  0
LAYER
  5
7F
330
2
100
AcDbSymbolTableRecord
100
AcDbLayerTableRecord
  2
MERKEZ_CIZGILERI
 70
     0
 62
    30
  6
Continuous
370
    -3
390
F
  0
LAYER
  5
80
330
2
100
AcDbSymbolTableRecord
100
AcDbLayerTableRecord
  2
KESIT-DETAY_CIZGILERI
 70
     0
 62
     7
  6
Continuous
370
    -3
390
F
  0
LAYER
  5
81
330
2
100
AcDbSymbolTableRecord
100
AcDbLayerTableRecord
  2
\U+041E\U+0421\U+0415\U+0412\U+042B\U+0415
 70
     0
 62
     7
  6
Continuous
370
    -3
390
F
  0
LAYER
  5
82
330
2
100
AcDbSymbolTableRecord
100
AcDbLayerTableRecord
  2
\U+0412\U+041E\U+0414\U+042F\U+041D\U+042B\U+0415_\U+0417\U+041D\U+0410\U+041A\U+0418
 70
     0
 62
    11
  6
Continuous
370
    -3
390
F
  0
ENDTAB
  0
TABLE
  2
STYLE
  5
3
330
0
100
AcDbSymbolTable
 70
     1
  0
STYLE
  5
11
330
3
100
AcDbSymbolTableRecord
100
AcDbTextStyleTableRecord
  2
Standard
 70
     0
 40
0.0
 41
1.0
 50
0.0
 71
     0
 42
3.5
  3
txt
  4

  0
ENDTAB
  0
TABLE
  2
VIEW
  5
6
330
0
100
AcDbSymbolTable
 70
     0
  0
ENDTAB
  0
TABLE
  2
UCS
  5
7
330
0
100
AcDbSymbolTable
 70
     0
  0
ENDTAB
  0
TABLE
  2
APPID
  5
9
330
0
100
AcDbSymbolTable
 70
     1
  0
APPID
  5
12
330
9
100
AcDbSymbolTableRecord
100
AcDbRegAppTableRecord
  2
ACAD
 70
     0
  0
ENDTAB
  0
TABLE
  2
DIMSTYLE
  5
A
330
0
100
AcDbSymbolTable
 70
     1
100
AcDbDimStyleTable
  0
DIMSTYLE
105
27
330
A
100
AcDbSymbolTableRecord
100
AcDbDimStyleTableRecord
  2
ISO-25
 70
     0
 41
2.5
 42
0.625
 43
3.75
 44
1.25
 73
     0
 74
     0
 77
     1
 78
     8
140
2.5
141
2.5
143
0.0393700787
147
0.625
171
     3
172
     1
178
     0
271
     2
272
     2
274
     3
278
    44
283
     0
284
     8
340
11
  0
ENDTAB
  0
TABLE
  2
BLOCK_RECORD
  5
1
330
0
100
AcDbSymbolTable
 70
     2
  0
BLOCK_RECORD
  5
1F
330
1
100
AcDbSymbolTableRecord
100
AcDbBlockTableRecord
  2
*Model_Space
340
22
  0
BLOCK_RECORD
  5
1B
330
1
100
AcDbSymbolTableRecord
100
AcDbBlockTableRecord
  2
*Paper_Space
340
1E
  0
BLOCK_RECORD
  5
23
330
1
100
AcDbSymbolTableRecord
100
AcDbBlockTableRecord
  2
*Paper_Space0
340
26
  0
BLOCK_RECORD
  5
92
330
1
100
AcDbSymbolTableRecord
100
AcDbBlockTableRecord
  2
SW_CENTERMARKSYMBOL_0
340
0
102
{BLKREFS
331
9D
102
}
  0
ENDTAB
  0
ENDSEC
  0
SECTION
  2
BLOCKS
  0
BLOCK
  5
20
330
1F
100
AcDbEntity
  8
0
100
AcDbBlockBegin
  2
*Model_Space
 70
     0
 10
0.0
 20
0.0
 30
0.0
  3
*Model_Space
  1

  0
ENDBLK
  5
21
330
1F
100
AcDbEntity
  8
0
100
AcDbBlockEnd
  0
BLOCK
  5
1C
330
1B
100
AcDbEntity
 67
     1
  8
0
100
AcDbBlockBegin
  2
*Paper_Space
 70
     0
 10
0.0
 20
0.0
 30
0.0
  3
*Paper_Space
  1

  0
ENDBLK
  5
1D
330
1B
100
AcDbEntity
 67
     1
  8
0
100
AcDbBlockEnd
  0
BLOCK
  5
24
330
23
100
AcDbEntity
  8
0
100
AcDbBlockBegin
  2
*Paper_Space0
 70
     0
 10
0.0
 20
0.0
 30
0.0
  3
*Paper_Space0
  1

  0
ENDBLK
  5
25
330
23
100
AcDbEntity
  8
0
100
AcDbBlockEnd
  0
BLOCK
  5
93
330
92
100
AcDbEntity
  8
0
100
AcDbBlockBegin
  2
SW_CENTERMARKSYMBOL_0
 70
     0
 10
0.0
 20
0.0
 30
0.0
  3
SW_CENTERMARKSYMBOL_0
  1

  0
LINE
  5
95
330
92
100
AcDbEntity
  8
FORMAT
 62
     0
100
AcDbLine
 10
0.0
 20
0.0
 30
0.0
 11
0.0
 21
2.5
 31
0.0
  0
LINE
  5
96
330
92
100
AcDbEntity
  8
FORMAT
 62
     0
100
AcDbLine
 10
0.0
 20
0.0
 30
0.0
 11
-2.5
 21
0.0
 31
0.0
  0
LINE
  5
97
330
92
100
AcDbEntity
  8
FORMAT
 62
     0
100
AcDbLine
 10
0.0
 20
0.0
 30
0.0
 11
0.0
 21
-2.5
 31
0.0
  0
LINE
  5
98
330
92
100
AcDbEntity
  8
FORMAT
 62
     0
100
AcDbLine
 10
0.0
 20
0.0
 30
0.0
 11
2.5
 21
0.0
 31
0.0
  0
LINE
  5
99
330
92
100
AcDbEntity
  8
FORMAT
 62
     0
100
AcDbLine
 10
0.0
 20
5.0
 30
0.0
 11
0.0
 21
34.0
 31
0.0
  0
LINE
  5
9A
330
92
100
AcDbEntity
  8
FORMAT
 62
     0
100
AcDbLine
 10
-5.0
 20
0.0
 30
0.0
 11
-34.0
 21
0.0
 31
0.0
  0
LINE
  5
9B
330
92
100
AcDbEntity
  8
FORMAT
 62
     0
100
AcDbLine
 10
0.0
 20
-5.0
 30
0.0
 11
0.0
 21
-34.0
 31
0.0
  0
LINE
  5
9C
330
92
100
AcDbEntity
  8
FORMAT
 62
     0
100
AcDbLine
 10
5.0
 20
0.0
 30
0.0
 11
34.0
 21
0.0
 31
0.0
  0
ENDBLK
  5
94
330
92
100
AcDbEntity
  8
0
100
AcDbBlockEnd
  0
ENDSEC
  0
SECTION
  2
ENTITIES
  0
CIRCLE
  5
83
330
1F
100
AcDbEntity
  8
0
  6
Continuous
 62
     7
370
    25
100
AcDbCircle
 10
139.8323425481
 20
108.7440552885
 30
0.0
 40
25.7
  0
CIRCLE
  5
84
330
1F
100
AcDbEntity
  8
0
  6
Continuous
 62
     7
370
    25
100
AcDbCircle
 10
139.8323425481
 20
108.7440552885
 30
0.0
 40
31.50000000000001
  0
CIRCLE
  5
85
330
1F
100
AcDbEntity
  8
0
  6
Continuous
 62
     7
370
    25
100
AcDbCircle
 10
139.8323425481
 20
108.7440552885
 30
0.0
 40
24.7
  0
ARC
  5
86
330
1F
100
AcDbEntity
  8
0
  6
Continuous
 62
     7
370
    25
100
AcDbCircle
 10
139.8323425481
 20
108.7440552885
 30
0.0
 40
44.99999999999999
100
AcDbArc
 50
267.2660444507
 51
272.7339555493
  0
LINE
  5
87
330
1F
100
AcDbEntity
  8
0
  6
Continuous
 62
     7
370
    25
100
AcDbLine
 10
137.6859136194
 20
63.795275073
 30
0.0
 11
101.9787714767
 21
84.4108032011
 31
0.0
  0
ARC
  5
88
330
1F
100
AcDbEntity
  8
0
  6
Continuous
 62
     7
370
    25
100
AcDbCircle
 10
139.8323425481
 20
108.7440552885
 30
0.0
 40
45.00000000000001
100
AcDbArc
 50
207.2660444507
 51
212.7339555493
  0
LINE
  5
89
330
1F
100
AcDbEntity
  8
0
  6
Continuous
 62
     7
370
    25
100
AcDbLine
 10
99.8323425481
 20
88.1285271604
 30
0.0
 11
99.8323425481
 21
129.3595834165
 31
0.0
  0
ARC
  5
8A
330
1F
100
AcDbEntity
  8
0
  6
Continuous
 62
     7
370
    25
100
AcDbCircle
 10
139.8323425481
 20
108.7440552885
 30
0.0
 40
45.00000000000001
100
AcDbArc
 50
147.2660444507
 51
152.7339555493
  0
LINE
  5
8B
330
1F
100
AcDbEntity
  8
0
  6
Continuous
 62
     7
370
    25
100
AcDbLine
 10
101.9787714767
 20
133.0773073758
 30
0.0
 11
137.6859136194
 21
153.6928355039
 31
0.0
  0
ARC
  5
8C
330
1F
100
AcDbEntity
  8
0
  6
Continuous
 62
     7
370
    25
100
AcDbCircle
 10
139.8323425481
 20
108.7440552885
 30
0.0
 40
44.99999999999999
100
AcDbArc
 50
87.2660444507
 51
92.7339555493
  0
LINE
  5
8D
330
1F
100
AcDbEntity
  8
0
  6
Continuous
 62
     7
370
    25
100
AcDbLine
 10
141.9787714767
 20
153.6928355039
 30
0.0
 11
177.6859136194
 21
133.0773073758
 31
0.0
  0
ARC
  5
8E
330
1F
100
AcDbEntity
  8
0
  6
Continuous
 62
     7
370
    25
100
AcDbCircle
 10
139.8323425481
 20
108.7440552885
 30
0.0
 40
45.00000000000001
100
AcDbArc
 50
27.2660444507
 51
32.7339555493
  0
LINE
  5
8F
330
1F
100
AcDbEntity
  8
0
  6
Continuous
 62
     7
370
    25
100
AcDbLine
 10
179.8323425481
 20
129.3595834165
 30
0.0
 11
179.8323425481
 21
88.1285271604
 31
0.0
  0
ARC
  5
90
330
1F
100
AcDbEntity
  8
0
  6
Continuous
 62
     7
370
    25
100
AcDbCircle
 10
139.8323425481
 20
108.7440552885
 30
0.0
 40
45.00000000000001
100
AcDbArc
 50
327.2660444507
 51
332.7339555493
  0
LINE
  5
91
330
1F
100
AcDbEntity
  8
0
  6
Continuous
 62
     7
370
    25
100
AcDbLine
 10
177.6859136194
 20
84.4108032011
 30
0.0
 11
141.9787714767
 21
63.795275073
 31
0.0
  0
INSERT
  5
9D
330
1F
100
AcDbEntity
  8
FORMAT
 62
     7
100
AcDbBlockReference
  2
SW_CENTERMARKSYMBOL_0
 10
139.8323425481
 20
108.7440552885
 30
0.0
  0
LINE
  5
9E
330
1F
100
AcDbEntity
  8
0
  6
Continuous
 62
     7
370
    25
100
AcDbLine
 10
176.3323425481
 20
206.6366453231
 30
0.0
 11
176.3323425481
 21
224.6366453231
 31
0.0
  0
LINE
  5
9F
330
1F
100
AcDbEntity
  8
0
  6
Continuous
 62
     7
370
    25
100
AcDbLine
 10
103.3323425481
 20
224.6366453231
 30
0.0
 11
103.3323425481
 21
206.6366453231
 31
0.0
  0
LINE
  5
A0
330
1F
100
AcDbEntity
  8
0
  6
Continuous
 62
     7
370
    25
100
AcDbLine
 10
171.3323425481
 20
243.1366453231
 30
0.0
 11
171.3323425481
 21
291.6366453231
 31
0.0
  0
LINE
  5
A1
330
1F
100
AcDbEntity
  8
0
  6
Continuous
 62
     7
370
    25
100
AcDbLine
 10
108.3323425481
 20
291.6366453231
 30
0.0
 11
108.3323425481
 21
243.1366453231
 31
0.0
  0
LINE
  5
A2
330
1F
100
AcDbEntity
  8
0
  6
Continuous
 62
     7
370
    25
100
AcDbLine
 10
176.3323425481
 20
206.6366453231
 30
0.0
 11
103.3323425481
 21
206.6366453231
 31
0.0
  0
LINE
  5
A3
330
1F
100
AcDbEntity
  8
0
  6
Continuous
 62
     7
370
    25
100
AcDbLine
 10
141.9787714767
 20
224.6366453231
 30
0.0
 11
137.6859136194
 21
224.6366453231
 31
0.0
  0
LINE
  5
A4
330
1F
100
AcDbEntity
  8
0
  6
Continuous
 62
     7
370
    25
100
AcDbLine
 10
137.6859136194
 20
224.6366453231
 30
0.0
 11
137.6859136194
 21
243.1366453231
 31
0.0
  0
LINE
  5
A5
330
1F
100
AcDbEntity
  8
0
  6
Continuous
 62
     7
370
    25
100
AcDbLine
 10
141.9787714767
 20
243.1366453231
 30
0.0
 11
137.6859136194
 21
243.1366453231
 31
0.0
  0
LINE
  5
A6
330
1F
100
AcDbEntity
  8
0
  6
Continuous
 62
     7
370
    25
100
AcDbLine
 10
141.9787714767
 20
243.1366453231
 30
0.0
 11
141.9787714767
 21
224.6366453231
 31
0.0
  0
LINE
  5
A7
330
1F
100
AcDbEntity
  8
0
  6
Continuous
 62
     7
370
    25
100
AcDbLine
 10
177.6859136194
 20
224.6366453231
 30
0.0
 11
177.6859136194
 21
243.1366453231
 31
0.0
  0
LINE
  5
A8
330
1F
100
AcDbEntity
  8
0
  6
Continuous
 62
     7
370
    25
100
AcDbLine
 10
177.6859136194
 20
243.1366453231
 30
0.0
 11
141.9787714767
 21
243.1366453231
 31
0.0
  0
LINE
  5
A9
330
1F
100
AcDbEntity
  8
0
  6
Continuous
 62
     7
370
    25
100
AcDbLine
 10
141.9787714767
 20
224.6366453231
 30
0.0
 11
177.6859136194
 21
224.6366453231
 31
0.0
  0
LINE
  5
AA
330
1F
100
AcDbEntity
  8
0
  6
Continuous
 62
     7
370
    25
100
AcDbLine
 10
101.9787714767
 20
243.1366453231
 30
0.0
 11
101.9787714767
 21
224.6366453231
 31
0.0
  0
LINE
  5
AB
330
1F
100
AcDbEntity
  8
0
  6
Continuous
 62
     7
370
    25
100
AcDbLine
 10
137.6859136194
 20
243.1366453231
 30
0.0
 11
101.9787714767
 21
243.1366453231
 31
0.0
  0
LINE
  5
AC
330
1F
100
AcDbEntity
  8
0
  6
Continuous
 62
     7
370
    25
100
AcDbLine
 10
101.9787714767
 20
224.6366453231
 30
0.0
 11
137.6859136194
 21
224.6366453231
 31
0.0
  0
LINE
  5
AD
330
1F
100
AcDbEntity
  8
0
  6
Continuous
 62
     7
370
    25
100
AcDbLine
 10
171.3323425481
 20
291.6366453231
 30
0.0
 11
108.3323425481
 21
291.6366453231
 31
0.0
  0
LINE
  5
AE
330
1F
100
AcDbEntity
  8
0
  6
Continuous
 62
     7
370
    25
100
AcDbLine
 10
179.8323425481
 20
243.1366453231
 30
0.0
 11
179.8323425481
 21
224.6366453231
 31
0.0
  0
LINE
  5
AF
330
1F
100
AcDbEntity
  8
0
  6
Continuous
 62
     7
370
    25
100
AcDbLine
 10
179.8323425481
 20
243.1366453231
 30
0.0
 11
177.6859136194
 21
243.1366453231
 31
0.0
  0
LINE
  5
B0
330
1F
100
AcDbEntity
  8
0
  6
Continuous
 62
     7
370
    25
100
AcDbLine
 10
179.8323425481
 20
224.6366453231
 30
0.0
 11
177.6859136194
 21
224.6366453231
 31
0.0
  0
LINE
  5
B1
330
1F
100
AcDbEntity
  8
0
  6
Continuous
 62
     7
370
    25
100
AcDbLine
 10
99.8323425481
 20
224.6366453231
 30
0.0
 11
99.8323425481
 21
243.1366453231
 31
0.0
  0
LINE
  5
B2
330
1F
100
AcDbEntity
  8
0
  6
Continuous
 62
     7
370
    25
100
AcDbLine
 10
101.9787714767
 20
243.1366453231
 30
0.0
 11
99.8323425481
 21
243.1366453231
 31
0.0
  0
LINE
  5
B3
330
1F
100
AcDbEntity
  8
0
  6
Continuous
 62
     7
370
    25
100
AcDbLine
 10
101.9787714767
 20
224.6366453231
 30
0.0
 11
99.8323425481
 21
224.6366453231
 31
0.0
  0
LINE
  5
B4
330
1F
100
AcDbEntity
  8
0
  6
Continuous
 62
     7
370
    25
100
AcDbLine
 10
251.9289804414
 20
72.2440552885
 30
0.0
 11
269.9289804414
 21
72.2440552885
 31
0.0
  0
LINE
  5
B5
330
1F
100
AcDbEntity
  8
0
  6
Continuous
 62
     7
370
    25
100
AcDbLine
 10
269.9289804414
 20
145.2440552885
 30
0.0
 11
251.9289804414
 21
145.2440552885
 31
0.0
  0
LINE
  5
B6
330
1F
100
AcDbEntity
  8
0
  6
Continuous
 62
     7
370
    25
100
AcDbLine
 10
288.4289804414
 20
77.2440552885
 30
0.0
 11
336.9289804414
 21
77.2440552885
 31
0.0
  0
LINE
  5
B7
330
1F
100
AcDbEntity
  8
0
  6
Continuous
 62
     7
370
    25
100
AcDbLine
 10
336.9289804414
 20
140.2440552885
 30
0.0
 11
288.4289804414
 21
140.2440552885
 31
0.0
  0
LINE
  5
B8
330
1F
100
AcDbEntity
  8
0
  6
Continuous
 62
     7
370
    25
100
AcDbLine
 10
269.9289804414
 20
63.7440552885
 30
0.0
 11
288.4289804414
 21
63.7440552885
 31
0.0
  0
LINE
  5
B9
330
1F
100
AcDbEntity
  8
0
  6
Continuous
 62
     7
370
    25
100
AcDbLine
 10
288.4289804414
 20
153.7440552885
 30
0.0
 11
269.9289804414
 21
153.7440552885
 31
0.0
  0
LINE
  5
BA
330
1F
100
AcDbEntity
  8
0
  6
Continuous
 62
     7
370
    25
100
AcDbLine
 10
251.9289804414
 20
108.7440552885
 30
0.0
 11
251.9289804414
 21
145.2440552885
 31
0.0
  0
LINE
  5
BB
330
1F
100
AcDbEntity
  8
0
  6
Continuous
 62
     7
370
    25
100
AcDbLine
 10
251.9289804414
 20
72.2440552885
 30
0.0
 11
251.9289804414
 21
108.7440552885
 31
0.0
  0
LINE
  5
BC
330
1F
100
AcDbEntity
  8
0
  6
Continuous
 62
     7
370
    25
100
AcDbLine
 10
269.9289804414
 20
88.1285271604
 30
0.0
 11
288.4289804414
 21
88.1285271604
 31
0.0
  0
LINE
  5
BD
330
1F
100
AcDbEntity
  8
0
  6
Continuous
 62
     7
370
    25
100
AcDbLine
 10
269.9289804414
 20
129.3595834165
 30
0.0
 11
269.9289804414
 21
88.1285271604
 31
0.0
  0
LINE
  5
BE
330
1F
100
AcDbEntity
  8
0
  6
Continuous
 62
     7
370
    25
100
AcDbLine
 10
288.4289804414
 20
129.3595834165
 30
0.0
 11
269.9289804414
 21
129.3595834165
 31
0.0
  0
LINE
  5
BF
330
1F
100
AcDbEntity
  8
0
  6
Continuous
 62
     7
370
    25
100
AcDbLine
 10
288.4289804414
 20
88.1285271604
 30
0.0
 11
288.4289804414
 21
129.3595834165
 31
0.0
  0
LINE
  5
C0
330
1F
100
AcDbEntity
  8
0
  6
Continuous
 62
     7
370
    25
100
AcDbLine
 10
288.4289804414
 20
84.4108032011
 30
0.0
 11
288.4289804414
 21
88.1285271604
 31
0.0
  0
LINE
  5
C1
330
1F
100
AcDbEntity
  8
0
  6
Continuous
 62
     7
370
    25
100
AcDbLine
 10
288.4289804414
 20
84.4108032011
 30
0.0
 11
269.9289804414
 21
84.4108032011
 31
0.0
  0
LINE
  5
C2
330
1F
100
AcDbEntity
  8
0
  6
Continuous
 62
     7
370
    25
100
AcDbLine
 10
269.9289804414
 20
84.4108032011
 30
0.0
 11
269.9289804414
 21
88.1285271604
 31
0.0
  0
LINE
  5
C3
330
1F
100
AcDbEntity
  8
0
  6
Continuous
 62
     7
370
    25
100
AcDbLine
 10
288.4289804414
 20
129.3595834165
 30
0.0
 11
288.4289804414
 21
133.0773073758
 31
0.0
  0
LINE
  5
C4
330
1F
100
AcDbEntity
  8
0
  6
Continuous
 62
     7
370
    25
100
AcDbLine
 10
269.9289804414
 20
133.0773073758
 30
0.0
 11
288.4289804414
 21
133.0773073758
 31
0.0
  0
LINE
  5
C5
330
1F
100
AcDbEntity
  8
0
  6
Continuous
 62
     7
370
    25
100
AcDbLine
 10
269.9289804414
 20
129.3595834165
 30
0.0
 11
269.9289804414
 21
133.0773073758
 31
0.0
  0
LINE
  5
C6
330
1F
100
AcDbEntity
  8
0
  6
Continuous
 62
     7
370
    25
100
AcDbLine
 10
288.4289804414
 20
153.6928355039
 30
0.0
 11
269.9289804414
 21
153.6928355039
 31
0.0
  0
LINE
  5
C7
330
1F
100
AcDbEntity
  8
0
  6
Continuous
 62
     7
370
    25
100
AcDbLine
 10
288.4289804414
 20
133.0773073758
 30
0.0
 11
288.4289804414
 21
153.6928355039
 31
0.0
  0
LINE
  5
C8
330
1F
100
AcDbEntity
  8
0
  6
Continuous
 62
     7
370
    25
100
AcDbLine
 10
269.9289804414
 20
153.6928355039
 30
0.0
 11
269.9289804414
 21
133.0773073758
 31
0.0
  0
LINE
  5
C9
330
1F
100
AcDbEntity
  8
0
  6
Continuous
 62
     7
370
    25
100
AcDbLine
 10
269.9289804414
 20
63.795275073
 30
0.0
 11
288.4289804414
 21
63.795275073
 31
0.0
  0
LINE
  5
CA
330
1F
100
AcDbEntity
  8
0
  6
Continuous
 62
     7
370
    25
100
AcDbLine
 10
288.4289804414
 20
63.795275073
 30
0.0
 11
288.4289804414
 21
84.4108032011
 31
0.0
  0
LINE
  5
CB
330
1F
100
AcDbEntity
  8
0
  6
Continuous
 62
     7
370
    25
100
AcDbLine
 10
269.9289804414
 20
84.4108032011
 30
0.0
 11
269.9289804414
 21
63.795275073
 31
0.0
  0
LINE
  5
CC
330
1F
100
AcDbEntity
  8
0
  6
Continuous
 62
     7
370
    25
100
AcDbLine
 10
336.9289804414
 20
108.7440552885
 30
0.0
 11
336.9289804414
 21
140.2440552885
 31
0.0
  0
LINE
  5
CD
330
1F
100
AcDbEntity
  8
0
  6
Continuous
 62
     7
370
    25
100
AcDbLine
 10
336.9289804414
 20
77.2440552885
 30
0.0
 11
336.9289804414
 21
108.7440552885
 31
0.0
  0
LINE
  5
CE
330
1F
100
AcDbEntity
  8
0
  6
Continuous
 62
     7
370
    25
100
AcDbLine
 10
288.4289804414
 20
63.7440552885
 30
0.0
 11
288.4289804414
 21
63.795275073
 31
0.0
  0
LINE
  5
CF
330
1F
100
AcDbEntity
  8
0
  6
Continuous
 62
     7
370
    25
100
AcDbLine
 10
269.9289804414
 20
63.7440552885
 30
0.0
 11
269.9289804414
 21
63.795275073
 31
0.0
  0
LINE
  5
D0
330
1F
100
AcDbEntity
  8
0
  6
Continuous
 62
     7
370
    25
100
AcDbLine
 10
288.4289804414
 20
153.6928355039
 30
0.0
 11
288.4289804414
 21
153.7440552885
 31
0.0
  0
LINE
  5
D1
330
1F
100
AcDbEntity
  8
0
  6
Continuous
 62
     7
370
    25
100
AcDbLine
 10
269.9289804414
 20
153.6928355039
 30
0.0
 11
269.9289804414
 21
153.7440552885
 31
0.0
  0
LINE
  5
D2
330
1F
100
AcDbEntity
  8
0
  6
Continuous
 62
     7
370
    25
100
AcDbLine
 10
46.1355669404
 20
145.2440552885
 30
0.0
 11
28.1355669404
 21
145.2440552885
 31
0.0
  0
LINE
  5
D3
330
1F
100
AcDbEntity
  8
0
  6
Continuous
 62
     7
370
    25
100
AcDbLine
 10
28.1355669404
 20
72.2440552885
 30
0.0
 11
46.1355669404
 21
72.2440552885
 31
0.0
  0
LINE
  5
D4
330
1F
100
AcDbEntity
  8
0
  6
Continuous
 62
     7
370
    25
100
AcDbLine
 10
9.6355669404
 20
140.2440552885
 30
0.0
 11
-38.8644330596
 21
140.2440552885
 31
0.0
  0
LINE
  5
D5
330
1F
100
AcDbEntity
  8
0
  6
Continuous
 62
     7
370
    25
100
AcDbLine
 10
-38.8644330596
 20
77.2440552885
 30
0.0
 11
9.6355669404
 21
77.2440552885
 31
0.0
  0
LINE
  5
D6
330
1F
100
AcDbEntity
  8
0
  6
Continuous
 62
     7
370
    25
100
AcDbLine
 10
28.1355669404
 20
153.7440552885
 30
0.0
 11
9.6355669404
 21
153.7440552885
 31
0.0
  0
LINE
  5
D7
330
1F
100
AcDbEntity
  8
0
  6
Continuous
 62
     7
370
    25
100
AcDbLine
 10
9.6355669404
 20
63.7440552885
 30
0.0
 11
28.1355669404
 21
63.7440552885
 31
0.0
  0
LINE
  5
D8
330
1F
100
AcDbEntity
  8
0
  6
Continuous
 62
     7
370
    25
100
AcDbLine
 10
46.1355669404
 20
145.2440552885
 30
0.0
 11
46.1355669404
 21
72.2440552885
 31
0.0
  0
LINE
  5
D9
330
1F
100
AcDbEntity
  8
0
  6
Continuous
 62
     7
370
    25
100
AcDbLine
 10
9.6355669404
 20
88.1285271604
 30
0.0
 11
9.6355669404
 21
84.4108032011
 31
0.0
  0
LINE
  5
DA
330
1F
100
AcDbEntity
  8
0
  6
Continuous
 62
     7
370
    25
100
AcDbLine
 10
9.6355669404
 20
88.1285271604
 30
0.0
 11
28.1355669404
 21
88.1285271604
 31
0.0
  0
LINE
  5
DB
330
1F
100
AcDbEntity
  8
0
  6
Continuous
 62
     7
370
    25
100
AcDbLine
 10
28.1355669404
 20
88.1285271604
 30
0.0
 11
28.1355669404
 21
84.4108032011
 31
0.0
  0
LINE
  5
DC
330
1F
100
AcDbEntity
  8
0
  6
Continuous
 62
     7
370
    25
100
AcDbLine
 10
28.1355669404
 20
84.4108032011
 30
0.0
 11
9.6355669404
 21
84.4108032011
 31
0.0
  0
LINE
  5
DD
330
1F
100
AcDbEntity
  8
0
  6
Continuous
 62
     7
370
    25
100
AcDbLine
 10
9.6355669404
 20
133.0773073758
 30
0.0
 11
9.6355669404
 21
129.3595834165
 31
0.0
  0
LINE
  5
DE
330
1F
100
AcDbEntity
  8
0
  6
Continuous
 62
     7
370
    25
100
AcDbLine
 10
9.6355669404
 20
133.0773073758
 30
0.0
 11
28.1355669404
 21
133.0773073758
 31
0.0
  0
LINE
  5
DF
330
1F
100
AcDbEntity
  8
0
  6
Continuous
 62
     7
370
    25
100
AcDbLine
 10
28.1355669404
 20
129.3595834165
 30
0.0
 11
9.6355669404
 21
129.3595834165
 31
0.0
  0
LINE
  5
E0
330
1F
100
AcDbEntity
  8
0
  6
Continuous
 62
     7
370
    25
100
AcDbLine
 10
28.1355669404
 20
133.0773073758
 30
0.0
 11
28.1355669404
 21
129.3595834165
 31
0.0
  0
LINE
  5
E1
330
1F
100
AcDbEntity
  8
0
  6
Continuous
 62
     7
370
    25
100
AcDbLine
 10
9.6355669404
 20
129.3595834165
 30
0.0
 11
9.6355669404
 21
88.1285271604
 31
0.0
  0
LINE
  5
E2
330
1F
100
AcDbEntity
  8
0
  6
Continuous
 62
     7
370
    25
100
AcDbLine
 10
28.1355669404
 20
88.1285271604
 30
0.0
 11
28.1355669404
 21
129.3595834165
 31
0.0
  0
LINE
  5
E3
330
1F
100
AcDbEntity
  8
0
  6
Continuous
 62
     7
370
    25
100
AcDbLine
 10
9.6355669404
 20
63.795275073
 30
0.0
 11
28.1355669404
 21
63.795275073
 31
0.0
  0
LINE
  5
E4
330
1F
100
AcDbEntity
  8
0
  6
Continuous
 62
     7
370
    25
100
AcDbLine
 10
9.6355669404
 20
84.4108032011
 30
0.0
 11
9.6355669404
 21
63.795275073
 31
0.0
  0
LINE
  5
E5
330
1F
100
AcDbEntity
  8
0
  6
Continuous
 62
     7
370
    25
100
AcDbLine
 10
28.1355669404
 20
63.795275073
 30
0.0
 11
28.1355669404
 21
84.4108032011
 31
0.0
  0
LINE
  5
E6
330
1F
100
AcDbEntity
  8
0
  6
Continuous
 62
     7
370
    25
100
AcDbLine
 10
28.1355669404
 20
153.6928355039
 30
0.0
 11
9.6355669404
 21
153.6928355039
 31
0.0
  0
LINE
  5
E7
330
1F
100
AcDbEntity
  8
0
  6
Continuous
 62
     7
370
    25
100
AcDbLine
 10
9.6355669404
 20
153.6928355039
 30
0.0
 11
9.6355669404
 21
133.0773073758
 31
0.0
  0
LINE
  5
E8
330
1F
100
AcDbEntity
  8
0
  6
Continuous
 62
     7
370
    25
100
AcDbLine
 10
28.1355669404
 20
133.0773073758
 30
0.0
 11
28.1355669404
 21
153.6928355039
 31
0.0
  0
LINE
  5
E9
330
1F
100
AcDbEntity
  8
0
  6
Continuous
 62
     7
370
    25
100
AcDbLine
 10
-38.8644330596
 20
140.2440552885
 30
0.0
 11
-38.8644330596
 21
77.2440552885
 31
0.0
  0
LINE
  5
EA
330
1F
100
AcDbEntity
  8
0
  6
Continuous
 62
     7
370
    25
100
AcDbLine
 10
9.6355669404
 20
153.7440552885
 30
0.0
 11
9.6355669404
 21
153.6928355039
 31
0.0
  0
LINE
  5
EB
330
1F
100
AcDbEntity
  8
0
  6
Continuous
 62
     7
370
    25
100
AcDbLine
 10
28.1355669404
 20
153.7440552885
 30
0.0
 11
28.1355669404
 21
153.6928355039
 31
0.0
  0
LINE
  5
EC
330
1F
100
AcDbEntity
  8
0
  6
Continuous
 62
     7
370
    25
100
AcDbLine
 10
9.6355669404
 20
63.795275073
 30
0.0
 11
9.6355669404
 21
63.7440552885
 31
0.0
  0
LINE
  5
ED
330
1F
100
AcDbEntity
  8
0
  6
Continuous
 62
     7
370
    25
100
AcDbLine
 10
28.1355669404
 20
63.795275073
 30
0.0
 11
28.1355669404
 21
63.7440552885
 31
0.0
  0
LINE
  5
EE
330
1F
100
AcDbEntity
  8
0
  6
Continuous
 62
     7
370
    25
100
AcDbLine
 10
332.8129798693
 20
-10.7029100588
 30
0.0
 11
330.1208121848
 21
-9.1487547357
 31
0.0
  0
LINE
  5
EF
330
1F
100
AcDbEntity
  8
0
  6
Continuous
 62
     7
370
    25
100
AcDbLine
 10
292.7542046161
 20
-71.8683274041
 30
0.0
 11
296.3159461281
 21
-73.9244770126
 31
0.0
  0
LINE
  5
F0
330
1F
100
AcDbEntity
  8
0
  6
Continuous
 62
     7
370
    25
100
AcDbLine
 10
304.5037855244
 20
-0.13370633
 30
0.0
 11
270.2091066368
 21
19.6641903817
 31
0.0
  0
LINE
  5
F1
330
1F
100
AcDbEntity
  8
0
  6
Continuous
 62
     7
370
    25
100
AcDbLine
 10
238.7116665588
 20
-34.8968879483
 30
0.0
 11
273.0063454463
 21
-54.69478466
 31
0.0
  0
LWPOLYLINE
  5
F2
330
1F
100
AcDbEntity
  8
0
  6
Continuous
 62
     7
370
    25
100
AcDbPolyline
 90
       62
 70
   128
 43
0.0
 10
332.8129798693
 20
-10.7029100588
 10
333.1722113123
 20
-10.9186189427
 10
334.0901719607
 20
-11.5514858502
 10
334.9537109562
 20
-12.2700925479
 10
335.7604214607
 20
-13.0724361501
 10
336.5080550273
 20
-13.9562803813
 10
337.1945278672
 20
-14.919161809
 10
337.8179266575
 20
-15.9583967101
 10
338.3765138738
 20
-17.0710885504
 10
338.8687326335
 20
-18.2541360582
 10
339.2932110346
 20
-19.504241868
 10
339.6487659797
 20
-20.8179217106
 10
339.9344064733
 20
-22.1915141247
 10
340.1493363842
 20
-23.6211906618
 10
340.2929566641
 20
-25.1029665572
 10
340.3648670176
 20
-26.6327118354
 10
340.3648670176
 20
-28.2061628222
 10
340.2929566641
 20
-29.8189340273
 10
340.1493363842
 20
-31.4665303682
 10
339.9344064733
 20
-33.1443596984
 10
339.6487659797
 20
-34.8477456065
 10
339.2932110346
 20
-36.5719404506
 10
338.8687326335
 20
-38.3121385904
 10
338.3765138738
 20
-40.0634897815
 10
337.8179266575
 20
-41.8211126941
 10
337.1945278672
 20
-43.5801085178
 10
336.5080550273
 20
-45.3355746158
 10
335.7604214607
 20
-47.0826181893
 10
334.9537109562
 20
-48.8163699144
 10
334.0901719607
 20
-50.5319975141
 10
333.1722113123
 20
-52.2247192267
 10
332.2023875319
 20
-53.889817133
 10
331.1834036923
 20
-55.5226503066
 10
330.1180998843
 20
-57.1186677486
 10
329.0094453006
 20
-58.6734210721
 10
327.8605299604
 20
-60.1825769007
 10
326.6745560969
 20
-61.6419289464
 10
325.4548292319
 20
-63.0474097334
 10
324.2047489629
 20
-64.3951019346
 10
322.9277994879
 20
-65.6812492902
 10
321.6275398941
 20
-66.9022670767
 10
320.3075942382
 20
-68.0547520987
 10
318.9716414454
 20
-69.1354921736
 10
317.6234050558
 20
-70.141475085
 10
316.2666428461
 20
-71.0698969781
 10
314.9051363559
 20
-71.9181701747
 10
313.5426803479
 20
-72.683930385
 10
312.1830722314
 20
-73.3650432982
 10
310.8301014781
 20
-73.9596105302
 10
309.4875390601
 20
-74.4659749158
 10
308.1591269398
 20
-74.8827251263
 10
306.8485676398
 20
-75.2086996044
 10
305.5595139242
 20
-75.4429898005
 10
304.2955586167
 20
-75.5849427061
 10
303.0602245875
 20
-75.6341626727
 10
301.8569549341
 20
-75.5905125156
 10
300.6891033849
 20
-75.4541138956
 10
299.5599249516
 20
-75.2253469801
 10
298.472566857
 20
-74.9048493835
 10
297.4300597631
 20
-74.4935143901
 10
296.4353093242
 20
-73.9924884643
 10
296.3159461281
 20
-73.9244770126
  0
LWPOLYLINE
  5
F3
330
1F
100
AcDbEntity
  8
0
  6
Continuous
 62
     7
370
    25
100
AcDbPolyline
 90
      112
 70
   128
 43
0.0
 10
232.1865229904
 20
-20.4747765445
 10
232.2221979405
 20
-18.9990129815
 10
232.3291085131
 20
-17.4867873135
 10
232.5069122415
 20
-15.9429436552
 10
232.7550395666
 20
-14.3724274032
 10
233.0726956619
 20
-12.7802693947
 10
233.4588629791
 20
-11.1715697916
 10
233.912304508
 20
-9.5514817438
 10
234.4315677385
 20
-7.9251948818
 10
235.0149893139
 20
-6.2979186926
 10
235.6607003592
 20
-4.6748658324
 10
236.3666324672
 20
-3.061235429
 10
237.1305243245
 20
-1.4621964268
 10
237.9499289551
 20
0.11712897
 10
238.8222215591
 20
1.6716817061
 10
239.7446079202
 20
3.1964820805
 10
240.7141333568
 20
4.6866456978
 10
241.7276921868
 20
6.1373991147
 10
242.7820376755
 20
7.5440951307
 10
243.8737924366
 20
8.9022276744
 10
244.9994592503
 20
10.2074462377
 10
246.1554322666
 20
11.4555698121
 10
247.3380085553
 20
12.6426002815
 10
248.5433999682
 20
13.7647352296
 10
249.767745273
 20
14.8183801196
 10
251.0071225227
 20
15.8001598095
 10
252.2575616184
 20
16.7069293628
 10
253.5150570265
 20
17.5357841234
 10
254.7755806102
 20
18.2840690196
 10
256.0350945325
 20
18.9493870692
 10
257.2895641906
 20
19.5296070579
 10
258.5349711398
 20
20.0228703662
 10
259.7673259665
 20
20.4275969231
 10
260.9826810664
 20
20.7424902673
 10
262.1771432908
 20
20.9665417006
 10
263.3468864171
 20
21.0990335186
 10
264.4881634054
 20
21.1395413101
 10
265.5973184015
 20
21.0879353164
 10
266.6707984475
 20
20.9443808472
 10
267.7051648632
 20
20.7093377505
 10
268.6971042612
 20
20.3835589405
 10
269.6434391605
 20
19.9680879847
 10
270.5411381651
 20
19.4642557619
 10
271.3873256744
 20
18.8736761986
 10
272.1792910949
 20
18.1982410992
 10
272.9144975225
 20
17.440114086
 10
273.5905898693
 20
16.6017236683
 10
274.2054024077
 20
15.6857554634
 10
274.7569657079
 20
14.6951435936
 10
275.2435129462
 20
13.6330612873
 10
275.6634855653
 20
12.5029107144
 10
276.0155382662
 20
11.3083120879
 10
276.2985433179
 20
10.0530920673
 10
276.51159417
 20
8.7412715007
 10
276.6540083563
 20
7.377052545
 10
276.7253296814
 20
5.9648052046
 10
276.7253296814
 20
4.5090533337
 10
276.6540083563
 20
3.0144601443
 10
276.51159417
 20
1.4858132689
 10
276.2985433179
 20
-0.0719905756
 10
276.0155382662
 20
-1.6539612738
 10
275.6634855653
 20
-3.2550312968
 10
275.2435129462
 20
-4.8700719345
 10
274.7569657079
 20
-6.4939097249
 10
274.2054024077
 20
-8.121343026
 10
273.5905898693
 20
-9.7471586782
 10
272.9144975225
 20
-11.366148704
 10
272.1792910949
 20
-12.9731269902
 10
271.3873256744
 20
-14.5629459008
 10
270.5411381651
 20
-16.1305127667
 10
269.6434391605
 20
-17.6708061985
 10
268.6971042612
 20
-19.178892172
 10
267.7051648632
 20
-20.6499398332
 10
266.6707984475
 20
-22.079236973
 10
265.5973184015
 20
-23.4622051217
 10
264.4881634054
 20
-24.7944142155
 10
263.3468864171
 20
-26.0715967869
 10
262.1771432908
 20
-27.2896616351
 10
260.9826810664
 20
-28.4447069313
 10
259.7673259665
 20
-29.533032717
 10
258.5349711398
 20
-30.5511527568
 10
257.2895641906
 20
-31.4958057052
 10
256.0350945325
 20
-32.363965554
 10
254.7755806102
 20
-33.1528513255
 10
253.5150570265
 20
-33.8599359808
 10
252.2575616184
 20
-34.4829545144
 10
251.0071225227
 20
-35.0199112103
 10
249.767745273
 20
-35.4690860342
 10
248.5433999682
 20
-35.8290401438
 10
247.3380085553
 20
-36.0986204976
 10
246.1554322666
 20
-36.2769635483
 10
244.9994592503
 20
-36.3634980095
 10
243.8737924366
 20
-36.3579466851
 10
242.7820376755
 20
-36.2603273578
 10
241.7276921868
 20
-36.0709527317
 10
240.7141333568
 20
-35.7904294308
 10
239.7446079202
 20
-35.4196560558
 10
238.8222215591
 20
-34.9598203055
 10
237.9499289551
 20
-34.4123951726
 10
237.1305243245
 20
-33.7791342248
 10
236.3666324672
 20
-33.0620659878
 10
235.6607003592
 20
-32.2634874473
 10
235.0149893139
 20
-31.3859566912
 10
234.4315677384
 20
-30.4322847149
 10
233.912304508
 20
-29.4055264175
 10
233.4588629791
 20
-28.3089708152
 10
233.0726956619
 20
-27.1461305062
 10
232.7550395666
 20
-25.9207304186
 10
232.5069122415
 20
-24.6366958784
 10
232.3291085131
 20
-23.2981400351
 10
232.2221979405
 20
-21.9093506868
 10
232.1865229904
 20
-20.4747765445
  0
LWPOLYLINE
  5
F4
330
1F
100
AcDbEntity
  8
0
  6
Continuous
 62
     7
370
    25
100
AcDbPolyline
 90
       58
 70
   128
 43
0.0
 10
304.5037855244
 20
-0.13370633
 10
304.8358170526
 20
-0.3336409498
 10
305.682004562
 20
-0.9242205131
 10
306.4739699825
 20
-1.5996556125
 10
307.20917641
 20
-2.3577826257
 10
307.8852687568
 20
-3.1961730434
 10
308.5000812952
 20
-4.1121412483
 10
309.0516445954
 20
-5.1027531181
 10
309.5381918338
 20
-6.1648354244
 10
309.9581644528
 20
-7.2949859973
 10
310.3102171537
 20
-8.4895846238
 10
310.5932222054
 20
-9.7448046444
 10
310.8062730575
 20
-11.056625211
 10
310.9486872439
 20
-12.4208441667
 10
311.0200085689
 20
-13.8330915071
 10
311.0200085689
 20
-15.288843378
 10
310.9486872439
 20
-16.7834365675
 10
310.8062730575
 20
-18.3120834428
 10
310.5932222054
 20
-19.8698872873
 10
310.3102171537
 20
-21.4518579855
 10
309.9581644528
 20
-23.0529280085
 10
309.5381918338
 20
-24.6679686462
 10
309.0516445954
 20
-26.2918064366
 10
308.5000812952
 20
-27.9192397377
 10
307.8852687568
 20
-29.5450553899
 10
307.20917641
 20
-31.1640454157
 10
306.4739699825
 20
-32.7710237019
 10
305.682004562
 20
-34.3608426125
 10
304.8358170526
 20
-35.9284094784
 10
303.938118048
 20
-37.4687029102
 10
302.9917831487
 20
-38.9767888837
 10
301.9998437508
 20
-40.4478365449
 10
300.9654773351
 20
-41.8771336847
 10
299.891997289
 20
-43.2601018334
 10
298.782842293
 20
-44.5923109272
 10
297.6415653046
 20
-45.8694934986
 10
296.4718221783
 20
-47.0875583468
 10
295.2773599539
 20
-48.242603643
 10
294.062004854
 20
-49.3309294287
 10
292.8296500274
 20
-50.3490494685
 10
291.5842430781
 20
-51.2937024169
 10
290.3297734201
 20
-52.1618622657
 10
289.0702594978
 20
-52.9507480372
 10
287.809735914
 20
-53.6578326925
 10
286.5522405059
 20
-54.2808512261
 10
285.3018014103
 20
-54.817807922
 10
284.0624241606
 20
-55.2669827459
 10
282.8380788557
 20
-55.6269368555
 10
281.6326874429
 20
-55.8965172093
 10
280.4501111542
 20
-56.07486026
 10
279.2941381379
 20
-56.1613947212
 10
278.1684713241
 20
-56.1558433968
 10
277.076716563
 20
-56.0582240695
 10
276.0223710743
 20
-55.8688494434
 10
275.0088122444
 20
-55.5883261425
 10
274.0392868077
 20
-55.2175527675
 10
273.1169004466
 20
-54.7577170172
 10
273.0063454463
 20
-54.69478466
  0
LWPOLYLINE
  5
F5
330
1F
100
AcDbEntity
  8
0
  6
Continuous
 62
     7
370
    25
100
AcDbPolyline
 90
      101
 70
   128
 43
0.0
 10
236.2877423213
 20
-18.1071930202
 10
236.3236018836
 20
-16.7688264754
 10
236.4310390493
 20
-15.3943392824
 10
236.609629813
 20
-13.9891559145
 10
236.8586693584
 20
-12.5588219882
 10
237.1771748403
 20
-11.1089823782
 10
237.5638892631
 20
-9.645358939
 10
238.0172864416
 20
-8.1737279237
 10
238.5355770243
 20
-6.6998971876
 10
239.116715555
 20
-5.2296832672
 10
239.7584085454
 20
-3.7688884253
 10
240.4581235265
 20
-2.3232777516
 10
241.213099043
 20
-0.8985564112
 10
242.0203555513
 20
0.4996528719
 10
242.8767071788
 20
1.8658320042
 10
243.7787742969
 20
3.194589301
 10
244.7229968588
 20
4.4806807642
 10
245.7056484495
 20
5.7190307784
 10
246.7228509919
 20
6.9047521418
 10
247.7705900524
 20
8.0331653539
 10
248.8447306836
 20
9.0998170833
 10
249.9410337432
 20
10.1004977429
 10
251.0551726238
 20
11.0312581033
 10
252.1827503282
 20
11.8884248787
 10
253.3193168225
 20
12.6686152232
 10
254.4603865978
 20
13.3687500822
 10
255.6014563732
 20
13.9860663431
 10
256.7380228674
 20
14.5181277407
 10
257.8656005718
 20
14.9628344718
 10
258.9797394524
 20
15.318431482
 10
260.076042512
 20
15.5835153924
 10
261.1501831432
 20
15.7570400379
 10
262.1979222037
 20
15.838320596
 10
263.2151247462
 20
15.8270362895
 10
264.1977763368
 20
15.7232316524
 10
265.1419988987
 20
15.5273163541
 10
266.0440660168
 20
15.2400635829
 10
266.9004176444
 20
14.8626069941
 10
267.7076741527
 20
14.3964362366
 10
268.4626496691
 20
13.8433910733
 10
269.1623646502
 20
13.2056541208
 10
269.8040576407
 20
12.4857422355
 10
270.3851961714
 20
11.6864965807
 10
270.903486754
 20
10.8110714139
 10
271.3568839325
 20
9.8629216382
 10
271.7435983553
 20
8.8457891678
 10
272.0621038372
 20
7.7636881596
 10
272.3111433826
 20
6.6208891722
 10
272.4897341463
 20
5.4219023109
 10
272.597171312
 20
4.1714594291
 10
272.6330308743
 20
2.8744954537
 10
272.597171312
 20
1.5361289088
 10
272.4897341463
 20
0.1616417159
 10
272.3111433826
 20
-1.2435416521
 10
272.0621038372
 20
-2.6738755784
 10
271.7435983553
 20
-4.1237151884
 10
271.3568839325
 20
-5.5873386276
 10
270.903486754
 20
-7.0589696429
 10
270.3851961714
 20
-8.532800379
 10
269.8040576407
 20
-10.0030142993
 10
269.1623646502
 20
-11.4638091413
 10
268.4626496691
 20
-12.9094198149
 10
267.7076741527
 20
-14.3341411554
 10
266.9004176444
 20
-15.7323504384
 10
266.0440660168
 20
-17.0985295707
 10
265.1419988987
 20
-18.4272868675
 10
264.1977763368
 20
-19.7133783307
 10
263.2151247462
 20
-20.9517283449
 10
262.1979222037
 20
-22.1374497083
 10
261.1501831432
 20
-23.2658629204
 10
260.076042512
 20
-24.3325146498
 10
258.9797394524
 20
-25.3331953094
 10
257.8656005718
 20
-26.2639556699
 10
256.7380228674
 20
-27.1211224452
 10
255.6014563732
 20
-27.9013127898
 10
254.4603865978
 20
-28.6014476487
 10
253.3193168225
 20
-29.2187639096
 10
252.1827503282
 20
-29.7508253073
 10
251.0551726238
 20
-30.1955320383
 10
249.9410337432
 20
-30.5511290485
 10
248.8447306836
 20
-30.8162129589
 10
247.7705900524
 20
-30.9897376044
 10
246.7228509919
 20
-31.0710181625
 10
245.7056484495
 20
-31.059733856
 10
244.7229968588
 20
-30.9559292189
 10
243.7787742969
 20
-30.7600139206
 10
242.8767071788
 20
-30.4727611494
 10
242.0203555513
 20
-30.0953045607
 10
241.213099043
 20
-29.6291338031
 10
240.4581235265
 20
-29.0760886398
 10
239.7584085454
 20
-28.4383516873
 10
239.1167155549
 20
-27.718439802
 10
238.5355770243
 20
-26.9191941472
 10
238.0172864416
 20
-26.0437689804
 10
237.5638892631
 20
-25.0956192048
 10
237.1771748403
 20
-24.0784867343
 10
236.8586693584
 20
-22.9963857262
 10
236.609629813
 20
-21.8535867387
 10
236.4310390493
 20
-20.6545998774
 10
236.3236018836
 20
-19.4041569956
 10
236.2877423213
 20
-18.1071930202
  0
LWPOLYLINE
  5
F6
330
1F
100
AcDbEntity
  8
0
  6
Continuous
 62
     7
370
    25
100
AcDbPolyline
 90
       35
 70
   128
 43
0.0
 10
243.3588101332
 20
-22.1892335793
 10
243.3946696955
 20
-20.8508670345
 10
243.5021068612
 20
-19.4763798416
 10
243.6806976248
 20
-18.0711964736
 10
243.9297371703
 20
-16.6408625473
 10
244.2482426522
 20
-15.1910229373
 10
244.634957075
 20
-13.7273994981
 10
245.0883542535
 20
-12.2557684828
 10
245.6066448361
 20
-10.7819377467
 10
246.1877833668
 20
-9.3117238263
 10
246.8294763573
 20
-7.8509289844
 10
247.5291913384
 20
-6.4053183107
 10
248.2841668548
 20
-4.9805969703
 10
249.0914233631
 20
-3.5823876873
 10
249.9477749907
 20
-2.2162085549
 10
250.8498421088
 20
-0.8874512581
 10
251.7940646707
 20
0.3986402051
 10
252.7767162613
 20
1.6369902192
 10
253.7939188038
 20
2.8227115826
 10
254.8416578643
 20
3.9511247948
 10
255.9157984955
 20
5.0177765242
 10
257.0121015551
 20
6.0184571838
 10
258.1262404356
 20
6.9492175442
 10
259.2538181401
 20
7.8063843196
 10
260.3903846343
 20
8.5865746641
 10
261.5314544097
 20
9.2867095231
 10
262.672524185
 20
9.904025784
 10
263.8090906793
 20
10.4360871816
 10
264.9366683837
 20
10.8807939127
 10
266.0508072643
 20
11.2363909229
 10
267.1471103238
 20
11.5014748333
 10
268.2212509551
 20
11.6749994788
 10
269.2689900156
 20
11.7562800369
 10
270.286192558
 20
11.7449957304
 10
270.3490466463
 20
11.7411916269
  0
ARC
  5
F7
330
1F
100
AcDbEntity
  8
0
  6
Continuous
 62
     7
370
    25
100
AcDbCircle
 10
259.1911873463
 20
-22.8384655516
 30
0.0
 40
15.84568302007651
100
AcDbArc
 50
177.6518104442
 51
211.2379364788
  0
LWPOLYLINE
  5
F8
330
1F
100
AcDbEntity
  8
0
  6
Continuous
 62
     7
370
    25
100
AcDbPolyline
 90
       34
 70
   128
 43
0.0
 10
244.7730236956
 20
-22.1892335793
 10
244.8089085155
 20
-20.8763137625
 10
244.916415517
 20
-19.5273572836
 10
245.0951029306
 20
-18.1479072942
 10
245.3442364914
 20
-16.7436322501
 10
245.6627924563
 20
-15.3203026188
 10
246.0494618104
 20
-13.8837671669
 10
246.5026556464
 20
-12.4399289267
 10
247.0205116936
 20
-10.9947209395
 10
247.6009019705
 20
-9.5540818746
 10
248.2414415289
 20
-8.1239316271
 10
248.9394982543
 20
-6.7101469911
 10
249.692203682
 20
-5.3185375109
 10
250.4964647839
 20
-3.9548216084
 10
251.3489766786
 20
-2.6246030847
 10
252.2462362118
 20
-1.3333480931
 10
253.1845563517
 20
-0.0863626773
 10
254.1600813396
 20
1.1112290321
 10
255.1688025341
 20
2.254505874
 10
256.2065748833
 20
3.3387698784
 10
257.2691339581
 20
4.3595655722
 10
258.3521134754
 20
5.3126982868
 10
259.4510632399
 20
6.1942513954
 10
260.5614674315
 20
7.0006024072
 10
261.678763161
 20
7.728437853
 10
262.7983592207
 20
8.3747669008
 10
263.9156549503
 20
8.9369336459
 10
265.0260591418
 20
9.4126280245
 10
266.1250089064
 20
9.7998953064
 10
267.2079884236
 20
10.0971441273
 10
268.2705474984
 20
10.3031530281
 10
269.3083198476
 20
10.4170754739
 10
270.3170410421
 20
10.438443333
 10
271.1186849788
 20
10.3869231321
  0
ARC
  5
F9
330
1F
100
AcDbEntity
  8
0
  6
Continuous
 62
     7
370
    25
100
AcDbCircle
 10
259.7179095613
 20
-22.853479962
 30
0.0
 40
14.95964026292858
100
AcDbArc
 50
177.4550837672
 51
213.201587744
  0
ARC
  5
FA
330
1F
100
AcDbEntity
  8
0
  6
Continuous
 62
     7
370
    25
100
AcDbCircle
 10
267.5706001511
 20
-27.420212548
 30
0.0
 40
42.40860011409946
100
AcDbArc
 50
297.6289311082
 51
302.3656923591
  0
LINE
  5
FB
330
1F
100
AcDbEntity
  8
0
  6
Continuous
 62
     7
370
    25
100
AcDbLine
 10
287.2373110346
 20
-64.9929399797
 30
0.0
 11
261.9885486887
 21
-62.7353201522
 31
0.0
  0
ARC
  5
FC
330
1F
100
AcDbEntity
  8
0
  6
Continuous
 62
     7
370
    25
100
AcDbCircle
 10
276.0240632096
 20
-51.2576422782
 30
0.0
 40
18.1309888656824
100
AcDbArc
 50
210.9264271959
 51
219.2749157968
  0
LINE
  5
FD
330
1F
100
AcDbEntity
  8
0
  6
Continuous
 62
     7
370
    25
100
AcDbLine
 10
260.4707942379
 20
-60.5758278066
 30
0.0
 11
260.4707942379
 21
-47.4581649831
 31
0.0
  0
ARC
  5
FE
330
1F
100
AcDbEntity
  8
0
  6
Continuous
 62
     7
370
    25
100
AcDbCircle
 10
309.3568958995
 20
-26.3522913752
 30
0.0
 40
41.20284313321889
100
AcDbArc
 50
117.5920951164
 51
120.5171192779
  0
LINE
  5
FF
330
1F
100
AcDbEntity
  8
0
  6
Continuous
 62
     7
370
    25
100
AcDbLine
 10
290.2728199361
 20
10.1644489898
 30
0.0
 11
315.521582282
 21
7.9068291623
 31
0.0
  0
ARC
  5
100
330
1F
100
AcDbEntity
  8
0
  6
Continuous
 62
     7
370
    25
100
AcDbCircle
 10
301.4860677612
 20
-3.5708487118
 30
0.0
 40
18.13098886567252
100
AcDbArc
 50
30.9264271959
 51
39.2749157968
  0
LINE
  5
101
330
1F
100
AcDbEntity
  8
0
  6
Continuous
 62
     7
370
    25
100
AcDbLine
 10
317.0393367328
 20
5.7473368166
 30
0.0
 11
317.0393367328
 21
-27.9195033337
 31
0.0
  0
ARC
  5
102
330
1F
100
AcDbEntity
  8
0
  6
Continuous
 62
     7
370
    25
100
AcDbCircle
 10
248.486973557
 20
-3.5723383512
 30
0.0
 40
72.74758373763397
100
AcDbArc
 50
337.1417234065
 51
340.4469168532
  0
LINE
  5
103
330
1F
100
AcDbEntity
  8
0
  6
Continuous
 62
     7
370
    25
100
AcDbLine
 10
315.521582282
 20
-31.8313576681
 30
0.0
 11
290.2728199361
 21
-63.2405779909
 31
0.0
  0
LINE
  5
104
330
1F
100
AcDbEntity
  8
0
  6
Continuous
 62
     7
370
    25
100
AcDbLine
 10
328.603057734
 20
-39.3831327025
 30
0.0
 11
315.521582282
 21
-31.8313576681
 31
0.0
  0
LINE
  5
105
330
1F
100
AcDbEntity
  8
0
  6
Continuous
 62
     7
370
    25
100
AcDbLine
 10
303.3542953881
 20
-70.7923530253
 30
0.0
 11
328.603057734
 21
-39.3831327025
 31
0.0
  0
LINE
  5
106
330
1F
100
AcDbEntity
  8
0
  6
Continuous
 62
     7
370
    25
100
AcDbLine
 10
290.2728199361
 20
-63.2405779909
 30
0.0
 11
303.3542953881
 21
-70.7923530253
 31
0.0
  0
LINE
  5
107
330
1F
100
AcDbEntity
  8
0
  6
Continuous
 62
     7
370
    25
100
AcDbLine
 10
317.0393367328
 20
-27.9195033337
 30
0.0
 11
330.1208121848
 21
-35.471278368
 31
0.0
  0
ARC
  5
108
330
1F
100
AcDbEntity
  8
0
  6
Continuous
 62
     7
370
    25
100
AcDbCircle
 10
261.5684490089
 20
-11.1241133856
 30
0.0
 40
72.7475837376901
100
AcDbArc
 50
337.1417234065
 51
340.4469168532
  0
LINE
  5
109
330
1F
100
AcDbEntity
  8
0
  6
Continuous
 62
     7
370
    25
100
AcDbLine
 10
330.1208121848
 20
-1.8044382177
 30
0.0
 11
317.0393367328
 21
5.7473368166
 31
0.0
  0
LINE
  5
10A
330
1F
100
AcDbEntity
  8
0
  6
Continuous
 62
     7
370
    25
100
AcDbLine
 10
330.1208121848
 20
-35.471278368
 30
0.0
 11
330.1208121848
 21
-1.8044382177
 31
0.0
  0
LINE
  5
10B
330
1F
100
AcDbEntity
  8
0
  6
Continuous
 62
     7
370
    25
100
AcDbLine
 10
300.3187864865
 20
-72.5447150141
 30
0.0
 11
287.2373110346
 21
-64.9929399797
 31
0.0
  0
ARC
  5
10C
330
1F
100
AcDbEntity
  8
0
  6
Continuous
 62
     7
370
    25
100
AcDbCircle
 10
280.652075603
 20
-34.9719875823
 30
0.0
 40
42.40860011409885
100
AcDbArc
 50
297.6289311082
 51
302.3656923591
  0
LINE
  5
10D
330
1F
100
AcDbEntity
  8
0
  6
Continuous
 62
     7
370
    25
100
AcDbLine
 10
261.9885486887
 20
-62.7353201522
 30
0.0
 11
275.0700241406
 21
-70.2870951866
 31
0.0
  0
LINE
  5
10E
330
1F
100
AcDbEntity
  8
0
  6
Continuous
 62
     7
370
    25
100
AcDbLine
 10
275.0700241406
 20
-70.2870951866
 30
0.0
 11
300.3187864865
 21
-72.5447150141
 31
0.0
  0
LINE
  5
10F
330
1F
100
AcDbEntity
  8
0
  6
Continuous
 62
     7
370
    25
100
AcDbLine
 10
315.521582282
 20
7.9068291623
 30
0.0
 11
328.603057734
 21
0.3550541279
 31
0.0
  0
ARC
  5
110
330
1F
100
AcDbEntity
  8
0
  6
Continuous
 62
     7
370
    25
100
AcDbCircle
 10
314.5675432131
 20
-11.1226237461
 30
0.0
 40
18.13098886568007
100
AcDbArc
 50
30.9264271959
 51
39.2749157968
  0
LINE
  5
111
330
1F
100
AcDbEntity
  8
0
  6
Continuous
 62
     7
370
    25
100
AcDbLine
 10
103.3323425481
 20
9.820533231
 30
0.0
 11
103.3323425481
 21
-8.179466769
 31
0.0
  0
LINE
  5
112
330
1F
100
AcDbEntity
  8
0
  6
Continuous
 62
     7
370
    25
100
AcDbLine
 10
176.3323425481
 20
-8.179466769
 30
0.0
 11
176.3323425481
 21
9.820533231
 31
0.0
  0
LINE
  5
113
330
1F
100
AcDbEntity
  8
0
  6
Continuous
 62
     7
370
    25
100
AcDbLine
 10
108.3323425481
 20
-26.679466769
 30
0.0
 11
108.3323425481
 21
-75.179466769
 31
0.0
  0
LINE
  5
114
330
1F
100
AcDbEntity
  8
0
  6
Continuous
 62
     7
370
    25
100
AcDbLine
 10
171.3323425481
 20
-75.179466769
 30
0.0
 11
171.3323425481
 21
-26.679466769
 31
0.0
  0
LINE
  5
115
330
1F
100
AcDbEntity
  8
0
  6
Continuous
 62
     7
370
    25
100
AcDbLine
 10
103.3323425481
 20
9.820533231
 30
0.0
 11
176.3323425481
 21
9.820533231
 31
0.0
  0
LINE
  5
116
330
1F
100
AcDbEntity
  8
0
  6
Continuous
 62
     7
370
    25
100
AcDbLine
 10
137.6859136194
 20
-26.679466769
 30
0.0
 11
141.9787714767
 21
-26.679466769
 31
0.0
  0
LINE
  5
117
330
1F
100
AcDbEntity
  8
0
  6
Continuous
 62
     7
370
    25
100
AcDbLine
 10
137.6859136194
 20
-26.679466769
 30
0.0
 11
137.6859136194
 21
-8.179466769
 31
0.0
  0
LINE
  5
118
330
1F
100
AcDbEntity
  8
0
  6
Continuous
 62
     7
370
    25
100
AcDbLine
 10
137.6859136194
 20
-8.179466769
 30
0.0
 11
141.9787714767
 21
-8.179466769
 31
0.0
  0
LINE
  5
119
330
1F
100
AcDbEntity
  8
0
  6
Continuous
 62
     7
370
    25
100
AcDbLine
 10
141.9787714767
 20
-8.179466769
 30
0.0
 11
141.9787714767
 21
-26.679466769
 31
0.0
  0
LINE
  5
11A
330
1F
100
AcDbEntity
  8
0
  6
Continuous
 62
     7
370
    25
100
AcDbLine
 10
101.9787714767
 20
-8.179466769
 30
0.0
 11
101.9787714767
 21
-26.679466769
 31
0.0
  0
LINE
  5
11B
330
1F
100
AcDbEntity
  8
0
  6
Continuous
 62
     7
370
    25
100
AcDbLine
 10
101.9787714767
 20
-26.679466769
 30
0.0
 11
137.6859136194
 21
-26.679466769
 31
0.0
  0
LINE
  5
11C
330
1F
100
AcDbEntity
  8
0
  6
Continuous
 62
     7
370
    25
100
AcDbLine
 10
137.6859136194
 20
-8.179466769
 30
0.0
 11
101.9787714767
 21
-8.179466769
 31
0.0
  0
LINE
  5
11D
330
1F
100
AcDbEntity
  8
0
  6
Continuous
 62
     7
370
    25
100
AcDbLine
 10
177.6859136194
 20
-26.679466769
 30
0.0
 11
177.6859136194
 21
-8.179466769
 31
0.0
  0
LINE
  5
11E
330
1F
100
AcDbEntity
  8
0
  6
Continuous
 62
     7
370
    25
100
AcDbLine
 10
141.9787714767
 20
-26.679466769
 30
0.0
 11
177.6859136194
 21
-26.679466769
 31
0.0
  0
LINE
  5
11F
330
1F
100
AcDbEntity
  8
0
  6
Continuous
 62
     7
370
    25
100
AcDbLine
 10
177.6859136194
 20
-8.179466769
 30
0.0
 11
141.9787714767
 21
-8.179466769
 31
0.0
  0
LINE
  5
120
330
1F
100
AcDbEntity
  8
0
  6
Continuous
 62
     7
370
    25
100
AcDbLine
 10
108.3323425481
 20
-75.179466769
 30
0.0
 11
171.3323425481
 21
-75.179466769
 31
0.0
  0
LINE
  5
121
330
1F
100
AcDbEntity
  8
0
  6
Continuous
 62
     7
370
    25
100
AcDbLine
 10
179.8323425481
 20
-8.179466769
 30
0.0
 11
179.8323425481
 21
-26.679466769
 31
0.0
  0
LINE
  5
122
330
1F
100
AcDbEntity
  8
0
  6
Continuous
 62
     7
370
    25
100
AcDbLine
 10
177.6859136194
 20
-26.679466769
 30
0.0
 11
179.8323425481
 21
-26.679466769
 31
0.0
  0
LINE
  5
123
330
1F
100
AcDbEntity
  8
0
  6
Continuous
 62
     7
370
    25
100
AcDbLine
 10
177.6859136194
 20
-8.179466769
 30
0.0
 11
179.8323425481
 21
-8.179466769
 31
0.0
  0
LINE
  5
124
330
1F
100
AcDbEntity
  8
0
  6
Continuous
 62
     7
370
    25
100
AcDbLine
 10
99.8323425481
 20
-26.679466769
 30
0.0
 11
99.8323425481
 21
-8.179466769
 31
0.0
  0
LINE
  5
125
330
1F
100
AcDbEntity
  8
0
  6
Continuous
 62
     7
370
    25
100
AcDbLine
 10
99.8323425481
 20
-26.679466769
 30
0.0
 11
101.9787714767
 21
-26.679466769
 31
0.0
  0
LINE
  5
126
330
1F
100
AcDbEntity
  8
0
  6
Continuous
 62
     7
370
    25
100
AcDbLine
 10
99.8323425481
 20
-8.179466769
 30
0.0
 11
101.9787714767
 21
-8.179466769
 31
0.0
  0
ENDSEC
  0
SECTION
  2
OBJECTS
  0
DICTIONARY
  5
C
330
0
100
AcDbDictionary
281
     1
  3
ACAD_GROUP
350
D
  3
ACAD_LAYOUT
350
1A
  3
ACAD_MLINESTYLE
350
17
  3
ACAD_PLOTSETTINGS
350
19
  3
ACAD_PLOTSTYLENAME
350
E
  3
ACAD_SCALELIST
350
47
  3
DWGPROPS
350
127
  0
DICTIONARY
  5
D
102
{ACAD_REACTORS
330
C
102
}
330
C
100
AcDbDictionary
281
     1
  0
DICTIONARY
  5
1A
102
{ACAD_REACTORS
330
C
102
}
330
C
100
AcDbDictionary
281
     1
  3
Layout1
350
1E
  3
Layout2
350
26
  3
Model
350
22
  0
DICTIONARY
  5
17
102
{ACAD_REACTORS
330
C
102
}
330
C
100
AcDbDictionary
281
     1
  3
Standard
350
18
  0
DICTIONARY
  5
19
102
{ACAD_REACTORS
330
C
102
}
330
C
100
AcDbDictionary
281
     1
  0
ACDBDICTIONARYWDFLT
  5
E
102
{ACAD_REACTORS
330
C
102
}
330
C
100
AcDbDictionary
281
     1
  3
Normal
350
F
100
AcDbDictionaryWithDefault
340
F
  0
DICTIONARY
  5
47
102
{ACAD_REACTORS
330
C
102
}
330
C
100
AcDbDictionary
281
     1
  3
A0
350
48
  3
A1
350
49
  3
A2
350
4A
  3
A3
350
4B
  3
A4
350
4C
  3
A5
350
4D
  3
A6
350
4E
  3
A7
350
4F
  3
A8
350
50
  3
A9
350
51
  3
B0
350
52
  3
B1
350
53
  3
B2
350
54
  3
B3
350
55
  3
B4
350
56
  3
B5
350
57
  3
B6
350
58
  3
B7
350
59
  3
B8
350
5A
  3
B9
350
5B
  3
C0
350
5C
  3
C1
350
5D
  3
C2
350
5E
  3
C3
350
5F
  3
C4
350
60
  3
C5
350
61
  3
C6
350
62
  3
C7
350
63
  3
C8
350
64
  3
C9
350
65
  3
D0
350
66
  3
D1
350
67
  3
D2
350
68
  0
XRECORD
  5
127
102
{ACAD_REACTORS
330
C
102
}
330
C
100
AcDbXrecord
280
     1
  1
DWGPROPS COOKIE
  2

  3

  4

  6

  7

  8
b.kav
  9

300
=
301
=
302
=
303
=
304
=
305
=
306
=
307
=
308
=
309
=
 40
0.0
 41
2459935.584329803
 42
2459935.584329988
  1

 90
        0
  0
LAYOUT
  5
1E
102
{ACAD_REACTORS
330
1A
102
}
330
1A
100
AcDbPlotSettings
  1

  2
none_device
  4

  6

 40
0.0
 41
0.0
 42
0.0
 43
0.0
 44
0.0
 45
0.0
 46
0.0
 47
0.0
 48
0.0
 49
0.0
140
0.0
141
0.0
142
1.0
143
1.0
 70
   688
 72
     1
 73
     0
 74
     5
  7

 75
    16
147
1.0
148
0.0
149
0.0
100
AcDbLayout
  1
Layout1
 70
     1
 71
     1
 10
0.0
 20
0.0
 11
420.0
 21
297.0
 12
0.0
 22
0.0
 32
0.0
 14
1.0000000000E+20
 24
1.0000000000E+20
 34
1.0000000000E+20
 15
-1.0000000000E+20
 25
-1.0000000000E+20
 35
-1.0000000000E+20
146
0.0
 13
0.0
 23
0.0
 33
0.0
 16
1.0
 26
0.0
 36
0.0
 17
0.0
 27
1.0
 37
0.0
 76
     0
330
1B
  0
LAYOUT
  5
26
102
{ACAD_REACTORS
330
1A
102
}
330
1A
100
AcDbPlotSettings
  1

  2
none_device
  4

  6

 40
0.0
 41
0.0
 42
0.0
 43
0.0
 44
0.0
 45
0.0
 46
0.0
 47
0.0
 48
0.0
 49
0.0
140
0.0
141
0.0
142
1.0
143
1.0
 70
   688
 72
     1
 73
     0
 74
     5
  7

 75
    16
147
1.0
148
0.0
149
0.0
100
AcDbLayout
  1
Layout2
 70
     1
 71
     2
 10
0.0
 20
0.0
 11
0.0
 21
0.0
 12
0.0
 22
0.0
 32
0.0
 14
0.0
 24
0.0
 34
0.0
 15
0.0
 25
0.0
 35
0.0
146
0.0
 13
0.0
 23
0.0
 33
0.0
 16
1.0
 26
0.0
 36
0.0
 17
0.0
 27
1.0
 37
0.0
 76
     0
330
23
  0
LAYOUT
  5
22
102
{ACAD_REACTORS
330
1A
102
}
330
1A
100
AcDbPlotSettings
  1

  2
none_device
  4
Letter_(8.50_x_11.00_Inches)
  6

 40
6.35
 41
6.35
 42
6.35000508
 43
6.35000508
 44
215.9
 45
279.4
 46
0.0
 47
0.0
 48
0.0
 49
0.0
140
0.0
141
0.0
142
1.0
143
1.0
 70
  1712
 72
     1
 73
     0
 74
     0
  7

 75
     0
147
1.0
148
0.0
149
0.0
100
AcDbLayout
  1
Model
 70
     1
 71
     0
 10
0.0
 20
0.0
 11
279.4
 21
215.9
 12
0.0
 22
0.0
 32
0.0
 14
0.0
 24
0.0
 34
0.0
 15
279.4
 25
215.9
 35
0.0
146
0.0
 13
0.0
 23
0.0
 33
0.0
 16
1.0
 26
0.0
 36
0.0
 17
0.0
 27
1.0
 37
0.0
 76
     0
330
1F
331
29
  0
MLINESTYLE
  5
18
102
{ACAD_REACTORS
330
17
102
}
330
17
100
AcDbMlineStyle
  2
Standard
 70
     0
  3

 62
   256
 51
90.0
 52
90.0
 71
     2
 49
0.5
 62
   256
  6
BYLAYER
 49
-0.5
 62
   256
  6
BYLAYER
  0
ACDBPLACEHOLDER
  5
F
102
{ACAD_REACTORS
330
E
102
}
330
E
  0
SCALE
  5
48
102
{ACAD_REACTORS
330
47
102
}
330
47
100
AcDbScale
 70
     0
300
1:1
140
1.0
141
1.0
290
     1
  0
SCALE
  5
49
102
{ACAD_REACTORS
330
47
102
}
330
47
100
AcDbScale
 70
     0
300
1:2
140
1.0
141
2.0
290
     0
  0
SCALE
  5
4A
102
{ACAD_REACTORS
330
47
102
}
330
47
100
AcDbScale
 70
     0
300
1:4
140
1.0
141
4.0
290
     0
  0
SCALE
  5
4B
102
{ACAD_REACTORS
330
47
102
}
330
47
100
AcDbScale
 70
     0
300
1:5
140
1.0
141
5.0
290
     0
  0
SCALE
  5
4C
102
{ACAD_REACTORS
330
47
102
}
330
47
100
AcDbScale
 70
     0
300
1:8
140
1.0
141
8.0
290
     0
  0
SCALE
  5
4D
102
{ACAD_REACTORS
330
47
102
}
330
47
100
AcDbScale
 70
     0
300
1:10
140
1.0
141
10.0
290
     0
  0
SCALE
  5
4E
102
{ACAD_REACTORS
330
47
102
}
330
47
100
AcDbScale
 70
     0
300
1:16
140
1.0
141
16.0
290
     0
  0
SCALE
  5
4F
102
{ACAD_REACTORS
330
47
102
}
330
47
100
AcDbScale
 70
     0
300
1:20
140
1.0
141
20.0
290
     0
  0
SCALE
  5
50
102
{ACAD_REACTORS
330
47
102
}
330
47
100
AcDbScale
 70
     0
300
1:30
140
1.0
141
30.0
290
     0
  0
SCALE
  5
51
102
{ACAD_REACTORS
330
47
102
}
330
47
100
AcDbScale
 70
     0
300
1:40
140
1.0
141
40.0
290
     0
  0
SCALE
  5
52
102
{ACAD_REACTORS
330
47
102
}
330
47
100
AcDbScale
 70
     0
300
1:50
140
1.0
141
50.0
290
     0
  0
SCALE
  5
53
102
{ACAD_REACTORS
330
47
102
}
330
47
100
AcDbScale
 70
     0
300
1:100
140
1.0
141
100.0
290
     0
  0
SCALE
  5
54
102
{ACAD_REACTORS
330
47
102
}
330
47
100
AcDbScale
 70
     0
300
2:1
140
2.0
141
1.0
290
     0
  0
SCALE
  5
55
102
{ACAD_REACTORS
330
47
102
}
330
47
100
AcDbScale
 70
     0
300
4:1
140
4.0
141
1.0
290
     0
  0
SCALE
  5
56
102
{ACAD_REACTORS
330
47
102
}
330
47
100
AcDbScale
 70
     0
300
8:1
140
8.0
141
1.0
290
     0
  0
SCALE
  5
57
102
{ACAD_REACTORS
330
47
102
}
330
47
100
AcDbScale
 70
     0
300
10:1
140
10.0
141
1.0
290
     0
  0
SCALE
  5
58
102
{ACAD_REACTORS
330
47
102
}
330
47
100
AcDbScale
 70
     0
300
100:1
140
100.0
141
1.0
290
     0
  0
SCALE
  5
59
102
{ACAD_REACTORS
330
47
102
}
330
47
100
AcDbScale
 70
     0
300
1/128" = 1'-0"
140
0.0078125
141
12.0
290
     0
  0
SCALE
  5
5A
102
{ACAD_REACTORS
330
47
102
}
330
47
100
AcDbScale
 70
     0
300
1/64" = 1'-0"
140
0.015625
141
12.0
290
     0
  0
SCALE
  5
5B
102
{ACAD_REACTORS
330
47
102
}
330
47
100
AcDbScale
 70
     0
300
1/32" = 1'-0"
140
0.03125
141
12.0
290
     0
  0
SCALE
  5
5C
102
{ACAD_REACTORS
330
47
102
}
330
47
100
AcDbScale
 70
     0
300
1/16" = 1'-0"
140
0.0625
141
12.0
290
     0
  0
SCALE
  5
5D
102
{ACAD_REACTORS
330
47
102
}
330
47
100
AcDbScale
 70
     0
300
3/32" = 1'-0"
140
0.09375
141
12.0
290
     0
  0
SCALE
  5
5E
102
{ACAD_REACTORS
330
47
102
}
330
47
100
AcDbScale
 70
     0
300
1/8" = 1'-0"
140
0.125
141
12.0
290
     0
  0
SCALE
  5
5F
102
{ACAD_REACTORS
330
47
102
}
330
47
100
AcDbScale
 70
     0
300
3/16" = 1'-0"
140
0.1875
141
12.0
290
     0
  0
SCALE
  5
60
102
{ACAD_REACTORS
330
47
102
}
330
47
100
AcDbScale
 70
     0
300
1/4" = 1'-0"
140
0.25
141
12.0
290
     0
  0
SCALE
  5
61
102
{ACAD_REACTORS
330
47
102
}
330
47
100
AcDbScale
 70
     0
300
3/8" = 1'-0"
140
0.375
141
12.0
290
     0
  0
SCALE
  5
62
102
{ACAD_REACTORS
330
47
102
}
330
47
100
AcDbScale
 70
     0
300
1/2" = 1'-0"
140
0.5
141
12.0
290
     0
  0
SCALE
  5
63
102
{ACAD_REACTORS
330
47
102
}
330
47
100
AcDbScale
 70
     0
300
3/4" = 1'-0"
140
0.75
141
12.0
290
     0
  0
SCALE
  5
64
102
{ACAD_REACTORS
330
47
102
}
330
47
100
AcDbScale
 70
     0
300
1" = 1'-0"
140
1.0
141
12.0
290
     0
  0
SCALE
  5
65
102
{ACAD_REACTORS
330
47
102
}
330
47
100
AcDbScale
 70
     0
300
1-1/2" = 1'-0"
140
1.5
141
12.0
290
     0
  0
SCALE
  5
66
102
{ACAD_REACTORS
330
47
102
}
330
47
100
AcDbScale
 70
     0
300
3" = 1'-0"
140
3.0
141
12.0
290
     0
  0
SCALE
  5
67
102
{ACAD_REACTORS
330
47
102
}
330
47
100
AcDbScale
 70
     0
300
6" = 1'-0"
140
6.0
141
12.0
290
     0
  0
SCALE
  5
68
102
{ACAD_REACTORS
330
47
102
}
330
47
100
AcDbScale
 70
     0
300
1'-0" = 1'-0"
140
12.0
141
12.0
290
     0
  0
ENDSEC
  0
EOF
